Intro: 

Parte 1:


E|---------------------------------------------------------|
B|---------------------------------------------------------|
G|-6--6-6-6-6--9--9-9-9-9-9-9-9-9-9--6--6-6-6-6--9--9-9-6--|
D|-7--7-7-7-7--7--7-7-7-7-7-7-7-7-7--7--7-7-7-7--7--7-7-7--|
A|-x--x-x-x-x--x--x-x-x-x-x-x-x-x-x--x--x-x-x-x--x--x-x-x--|
E|-x--x-x-x-x--x--x-x-x-x-x-x-x-x-x--x--x-x-x-x--x--x-x-x--|


Parte 2:


E|-------------------------|
B|10-10-10-10--9-9-9-9--7--|
G|7--7--7--7---7-7-7-7--7--|  (2x)
Db|x--x--x--x---x-x-x-x--x--|
A|-------------------------|
E|-------------------------|


Parte 1:


E|---------------------------------------------------------|
B|---------------------------------------------------------|
G|-6--6-6-6-6--9--9-9-9-9-9-9-9-9-9--6--6-6-6-6--9--9-9-6--|
D|-7--7-7-7-7--7--7-7-7-7-7-7-7-7-7--7--7-7-7-7--7--7-7-7--|
A|-x--x-x-x-x--x--x-x-x-x-x-x-x-x-x--x--x-x-x-x--x--x-x-x--|
E|-x--x-x-x-x--x--x-x-x-x-x-x-x-x-x--x--x-x-x-x--x--x-x-x--|


Parte 3:


E|-------------------------|
B|10-10-10--9---7--5--7-7--|
G|7--7--7---7---7--7--7-7--|
D|-------------------------|
A|-------------------------|
E|-------------------------|


Parte 4:


E|------------------------------------------|
B|-x-x-x-x--x-x-x-x-x-x-x-x-----------------|
G|-7-x-7-7--x-x-7-x-x-7-x-x--2--------------|
D|-7-x-7-7--x-x-7-x-x-7-x-x--4--------------|
A|-5-x-5-5--x-x-5-x-x-5-x-x--4-----2--------|
E|---------------------------2-2-5---5-4-0--|



E|---------------------------------------------------|
B|-x-x-x-x--x-x-x-x-x-x-x-x--------------------------|
G|-7-x-7-7--x-x-7-x-x-7-x-x--2-----------------------|
D|-7-x-7-7--x-x-7-x-x-7-x-x--4-----2-----------------|
A|-5-x-5-5--x-x-5-x-x-5-x-x--4-----------------------|
E|---------------------------2-2-5---5-4-0--0-0-0-0--|


Verso:

Parte 1:


E|-----------------------------------------------------------|
B|----------------------9---9----10----10-----9---9----10----|
G|9-7-6----6----------------------------------------------9--|
D|-------7---7/11--------------------------------------------|
A|----------------129---9-----9----9------9---9----9--------|
E|-----------------------------------------------------------|


Parte 2:


E|------------------------------------------------------------|
B|----------------------9---9----10----10-----9---9----10-----|
G|9-7-6----6--------------------------------------------------|
D|-------7---7/11---------------------------------------------|
A|----------------129---9-----9----9------9---9----9--------|
E|------------------------------------------------------------|


Refrão 2x:


E|------------------------------------------|
B|-x-x-x-x--x-x-x-x-x-x-x-x-----------------|
G|-7-x-7-7--x-x-7-x-x-7-x-x--2--------------|
D|-7-x-7-7--x-x-7-x-x-7-x-x--4-----2--------|
A|-5-x-5-5--x-x-5-x-x-5-x-x--4--------------|
E|---------------------------2-2-5---5-4-0--|



E|------------------------------------------|
B|-x-x-x-x--x-x-x-x-x-x-x-x-----------------|
G|-7-x-7-7--x-x-7-x-x-7-x-x--2--------------|
D|-7-x-7-7--x-x-7-x-x-7-x-x--4-----2--------|
A|-5-x-5-5--x-x-5-x-x-5-x-x--4--------------|
E|---------------------------2-2-5---5-4-0--|


Solo 1:

Parte 1:


E|0----0-0-0-0-0-0-0-0-0-0-0-0---0----0----0----|
Bb|5/7--7-7-7-75-5-5-5/9-9-9-9--10p9-10p9-10p9--|
G|----------------------------------------------|
D|----------------------------------------------|
A|----------------------------------------------|
E|----------------------------------------------|



E|0----0-0-0-0-0-0-0-0-0-0-0-0---0----0----0-----|
Bb|5/7--7-7-7-75-5-5-5/9-9-9-9--10p9-10p9-10p9--|
G|-----------------------------------------------|
D|-----------------------------------------------|
A|-----------------------------------------------|
E|-----------------------------------------------|


Parte 2:


E|------------------------------------|
B|--7-7/9---9-9-------------10-9~~~--|
G|------------------6-6---------------| (2x)
D|0-------0-------4-----4/7-----------|
A|------------------------------------|
E|------------------------------------|


Parte 3:


E|12-12--------------------------------------12-12---------------------10-10-9-9-----------|
B|------10-10--------10-10--12-12--10-10-----------10-10--------10-10------------12-12-10--|
G|-------------11-11---------------------11---------------11-11----------------------------|
D|-----------------------------------------------------------------------------------------|
A|-----------------------------------------------------------------------------------------|
E|-----------------------------------------------------------------------------------------|



E|12-12-----------------------------------12-12---------------------10b--|
B|------10-10------10-10--12-12--10-10----------10-10--------10-10-------|
G|------------11-11--------------------11--------------11-11-------------|
D|-----------------------------------------------------------------------|
A|-----------------------------------------------------------------------|
E|-----------------------------------------------------------------------|


Intro: 


E|------------------------------------------|
B|-x-x-x-x--x-x-x-x-x-x-x-x-----------------|
G|-7-x-7-7--x-x-7-x-x-7-x-x--2--------------|
D|-7-x-7-7--x-x-7-x-x-7-x-x--4--------------|
A|-5-x-5-5--x-x-5-x-x-5-x-x--4-----2--------|
E|---------------------------2-2-5---5-4-0--|



E|---------------------------------------------------|
B|-x-x-x-x--x-x-x-x-x-x-x-x--------------------------|
G|-7-x-7-7--x-x-7-x-x-7-x-x--2-----------------------|
D|-7-x-7-7--x-x-7-x-x-7-x-x--4-----2-----------------|
A|-5-x-5-5--x-x-5-x-x-5-x-x--4-----------------------|
E|---------------------------2-2-5---5-4-0--0-0-0-0--|


Verso:

Parte 1:


E|-----------------------------------------------------------|
B|----------------------9---9----10----10-----9---9----10----|
G|9-7-6----6----------------------------------------------9--|
D|-------7---7/11--------------------------------------------|
A|----------------129---9-----9----9------9---9----9--------|
E|-----------------------------------------------------------|


Parte 2:


E|------------------------------------------------------------|
B|----------------------9---9----10----10-----9---9----10-----|
G|9-7-6----6--------------------------------------------------|
D|-------7---7/11---------------------------------------------|
A|----------------129---9-----9----9------9---9----9--------|
E|------------------------------------------------------------|


Refrão 2x:


E|------------------------------------------|
B|-x-x-x-x--x-x-x-x-x-x-x-x-----------------|
G|-7-x-7-7--x-x-7-x-x-7-x-x--2--------------|
D|-7-x-7-7--x-x-7-x-x-7-x-x--4-----2--------|
A|-5-x-5-5--x-x-5-x-x-5-x-x--4--------------|
E|---------------------------2-2-5---5-4-0--|



E|------------------------------------------|
B|-x-x-x-x--x-x-x-x-x-x-x-x-----------------|
G|-7-x-7-7--x-x-7-x-x-7-x-x--2--------------|
D|-7-x-7-7--x-x-7-x-x-7-x-x--4-----2--------|
A|-5-x-5-5--x-x-5-x-x-5-x-x--4--------------|
E|---------------------------2-2-5---5-4-0--|



(PARTE SOLADA PELO BAIXO)

Raspe a palheta na corda A da Guitarra.

Solo 2:


E|-----------------------------------------------|
B|--------------------12-14----------------------|
G|13-14--13-14--13-14-------13-14---------13-14--|
D|---------------------------------1614---------|
A|-----------------------------------------------|
E|-----------------------------------------------|



E|----------------------------------------------------|
B|--------------------12------------------------------|
G|13-14--13-14--13-14-------14----14-------13----13--|
D|-----------------------16----16----1614----14------|
A|----------------------------------------------------|
E|----------------------------------------------------|



E|-------------------------|
B|10-10-10-10--9-9-9-9--7--|
G|7--7--7--7---7-7-7-7--7--|  (4x)
Db|x--x--x--x---x-x-x-x--x--|
A|-------------------------|
E|-------------------------|



E|---------------------------------------------------------|
B|---------------------------------------------------------|
G|-6--6-6-6-6--9--9-9-9-9-9-9-9-9-9--6--6-6-6-6--9--9-9-6--|
D|-7--7-7-7-7--7--7-7-7-7-7-7-7-7-7--7--7-7-7-7--7--7-7-7--|
A|-x--x-x-x-x--x--x-x-x-x-x-x-x-x-x--x--x-x-x-x--x--x-x-x--|
E|-x--x-x-x-x--x--x-x-x-x-x-x-x-x-x--x--x-x-x-x--x--x-x-x--|



E|-------------------------|
B|10-10-10--9---7--5--7-7--|
G|7--7--7---7---7--7--7-7--|
Db|x--x--x---x---x--x--x-x--|
A|-------------------------|
E|-------------------------|



E|---------------------------------------------------------|
B|---------------------------------------------------------|
G|-6--6-6-6-6--9--9-9-9-9-9-9-9-9-9--6--6-6-6-6--9--9-9-6--|
D|-7--7-7-7-7--7--7-7-7-7-7-7-7-7-7--7--7-7-7-7--7--7-7-7--|
A|-x--x-x-x-x--x--x-x-x-x-x-x-x-x-x--x--x-x-x-x--x--x-x-x--|
E|-x--x-x-x-x--x--x-x-x-x-x-x-x-x-x--x--x-x-x-x--x--x-x-x--|



E|-------------------------|
B|10-10-10-10--9-9-9-9--7--|
G|7--7--7--7---7-7-7-7--7--|  (2x)
Db|x--x--x--x---x-x-x-x--x--|
A|-------------------------|
E|-------------------------|



E|---------------------------------------------------------|
B|---------------------------------------------------------|
G|-6--6-6-6-6--9--9-9-9-9-9-9-9-9-9--6--6-6-6-6--9--9-9-6--|
D|-7--7-7-7-7--7--7-7-7-7-7-7-7-7-7--7--7-7-7-7--7--7-7-7--|
A|-x--x-x-x-x--x--x-x-x-x-x-x-x-x-x--x--x-x-x-x--x--x-x-x--|
E|-x--x-x-x-x--x--x-x-x-x-x-x-x-x-x--x--x-x-x-x--x--x-x-x--|



E|-------------------------|
B|10-10-10--9---7--5--7-7--|
G|7--7--7---7---7--7--7-7--|
Db|x--x--x---x---x--x--x-x--|
A|-------------------------|
E|-------------------------|



E|---------------------------------------------------------|
B|---------------------------------------------------------|
G|-6--6-6-6-6--9--9-9-9-9-9-9-9-9-9--6--6-6-6-6--9--9-9-6--|
D|-7--7-7-7-7--7--7-7-7-7-7-7-7-7-7--7--7-7-7-7--7--7-7-7--|
A|-x--x-x-x-x--x--x-x-x-x-x-x-x-x-x--x--x-x-x-x--x--x-x-x--|
E|-x--x-x-x-x--x--x-x-x-x-x-x-x-x-x--x--x-x-x-x--x--x-x-x--|



E|-------------------------|
B|10-10-10-10--9-9-9-9--7--|
G|7--7--7--7---7-7-7-7--7--|  (2x)
Db|x--x--x--x---x-x-x-x--x--|
A|-------------------------|
E|-------------------------|



E|---------------------------------------------------------|
B|---------------------------------------------------------|
G|-6--6-6-6-6--9--9-9-9-9-9-9-9-9-9--6--6-6-6-6--9--9-9-6--|
D|-7--7-7-7-7--7--7-7-7-7-7-7-7-7-7--7--7-7-7-7--7--7-7-7--|
A|-x--x-x-x-x--x--x-x-x-x-x-x-x-x-x--x--x-x-x-x--x--x-x-x--|
E|-x--x-x-x-x--x--x-x-x-x-x-x-x-x-x--x--x-x-x-x--x--x-x-x--|




E|-------------------------|
B|10-10-10--9---7--5--7-7--|
G|7--7--7---7---7--7--7-7--| (2x)
Db|x--x--x---x---x--x--x-x--|
A|-------------------------|
E|-------------------------|

/ceu-azul-klawerbord-charlie-brown-jr|Céu azul|Charlie Brown Jr.|charlie-brown-jr.jpg /pra-nao-dizer-que-nao-falei-das-flores-klawerbord-charlie-brown-jr|Pra não dizer que não falei das flores|Charlie Brown Jr.|charlie-brown-jr.jpg /corra-vagabundo-klawerbord-charlie-brown-jr|Corra vagabundo|Charlie Brown Jr.|charlie-brown-jr.jpg /so-os-loucos-sabem-sem-capotraste-klawerbord-charlie-brown-jr|Só os loucos sabem (sem capotraste)|Charlie Brown Jr.|charlie-brown-jr.jpg /viver-dias-de-sol-klawerbord-charlie-brown-jr|Viver dias de sol|Charlie Brown Jr.|charlie-brown-jr.jpg /cidade-grande-klawerbord-charlie-brown-jr|Cidade grande|Charlie Brown Jr.|charlie-brown-jr.jpg /dias-de-luta-dias-de-gloria-klawerbord-charlie-brown-jr|Dias de luta, dias de glória|Charlie Brown Jr.|charlie-brown-jr.jpg /local-klawerbord-charlie-brown-jr|Local|Charlie Brown Jr.|charlie-brown-jr.jpg /nao-deixe-o-mar-te-engolir-klawerbord-charlie-brown-jr|Não deixe o mar te engolir|Charlie Brown Jr.|charlie-brown-jr.jpg /nao-e-serio-klawerbord-charlie-brown-jr|Não é sério|Charlie Brown Jr.|charlie-brown-jr.jpg /aquela-paz-klawerbord-charlie-brown-jr|Aquela paz|Charlie Brown Jr.|charlie-brown-jr.jpg /ela-vai-voltar-klawerbord-charlie-brown-jr|Ela vai voltar|Charlie Brown Jr.|charlie-brown-jr.jpg /direto-e-reto-sempre-klawerbord-charlie-brown-jr|Direto e reto sempre|Charlie Brown Jr.|charlie-brown-jr.jpg /so-os-loucos-sabem-klawerbord-charlie-brown-jr|Só os loucos sabem|Charlie Brown Jr.|charlie-brown-jr.jpg /peso-da-batida-do-errado-que-deu-certo-klawerbord-charlie-brown-jr|Peso da batida do errado que deu certo|Charlie Brown Jr.|charlie-brown-jr.jpg 12
/klawerbord-ed-sheeran|Ed Sheeran|ed-sheeran.jpg /klawerbord-coldplay|Coldplay|coldplay.jpg /klawerbord-justin-bieber|Justin Bieber|justin-bieber.jpg /klawerbord-bruno-mars|Bruno Mars|bruno-mars.jpg /klawerbord-adele|Adele|adele.jpg /klawerbord-oasis|Oasis|oasis.jpg /klawerbord-red-hot-chili-peppers|Red Hot Chili Peppers|red-hot-chili-peppers.jpg /klawerbord-the-beatles|The Beatles|the-beatles.jpg /klawerbord-creed|Creed|creed.jpg /klawerbord-sia|Sia|sia.jpg /klawerbord-nirvana|Nirvana|nirvana.jpg /klawerbord-green-day|Green Day|green-day.jpg /klawerbord-guns-n-roses|Guns N' Roses|guns-n-roses.jpg /klawerbord-jason-mraz|Jason Mraz|jason-mraz.jpg /klawerbord-avicii|Avicii|avicii.jpg 4