Intro: 

E|---------|
B|---------|
G|---7--9--|   (16x)
D|-9-------|
A|---------|
E|---------|



E|---------|
B|---------|
G|---------|   (8x)
D|--9-9-9--|
A|--9-9-9--|
E|--7-7-7--|


Parte 1 - 2x:

E|--------------------14-14-14---------------16-16-16---------------18-18-18-18-18-15-12--|
B|--16-16---16-16-16-----------16---16-16-16----------16---16-16-16-----------------------|
G|----------------------------------------------------------------------------------------|
D|----------------------------------------------------------------------------------------|
A|----------------------------------------------------------------------------------------|
E|----------------------------------------------------------------------------------------|



E|--7--7-7-7-9-7---9-7---7--7-7-7---------------------------------------------------------|
B|---------------9-----9----------8-8-8-8-------------------------------------------------|
G|----------------------------------------------------------------------------------------|
D|----------------------------------------------------------------------------------------|
A|----------------------------------------------------------------------------------------|
E|----------------------------------------------------------------------------------------|


Verso:

E|---11--------|
B|---12--------|
G|---11--------|   (16x)
D|-------------|
A|-------------|
E|-------------|


E|---7---------|
B|---9---------|
G|---9---------|   (16x)
D|-------------|
A|-------------|
E|-------------|

	"You Know..."
E|-------------------------------------------------------------|
B|--9--9-7------9-7-----9-7-----9-7----------------------------|
G|---------8--6-----8-------8-------8-------6-8----9-5-6-------|
D|--------------------9-------9----------9-------6--------4----|
A|-------------------------------------------------------------|
E|-------------------------------------------------------------|


( Ab  Gb  E )  (2x)

Solo:

(Guitarra Base)

E|---7-----7-7-7-7-7------------7------|
B|---9---------------9-9--------8------|
G|---9-------------------9------9------|
D|-------------------------------------|
A|-------------------------------------|
E|-------------------------------------|



E|---11--------|
B|---12--------|
G|---11--------|   (16x)
D|-------------|
A|-------------|
E|-------------|



E|---7--7------|
B|---9--8------|
G|---9--9------|   (16x)
D|-------------|
A|-------------|
E|-------------|


( B  Ab  G )


E|----------------------------------------------------|
B|----------------------------------------------------|
G|---------------------------------8-----8--6--4------|   (2x)
D|--9-8-9--9/11-9-8-9---8-9-9/11-9---4-----------6--5-|
A|----------------------------------------------------|
E|----------------------------------------------------|



E|---------------------------------------|
B|--9-9-7-7--------9-9-9-7-7-------------|
G|----------8-8-8-------------8-8-8-8----|   (2x)
D|---------------------------------------|
A|---------------------------------------|
E|---------------------------------------|



E|---------------------------------------|
B|--9-9-7-7-------------7-7--------------|
G|----------8-8-6-6-8-8------8-8-6-6-4---|
D|---------------------------------------|
A|---------------------------------------|
E|---------------------------------------|
Ab|[0,"8.18.21",0,""] Gb|[0,"17.19.20",0,""] E|[0,"3.7.18",0,""] B|[0,"7.21.22",0,""] G|[0,"5.7.9",0,""]
2013-klawerbord-arctic-monkeys|2013|Arctic Monkeys|arctic-monkeys.jpg 505-klawerbord-arctic-monkeys|505|Arctic Monkeys|arctic-monkeys.jpg a-certain-romance-klawerbord-arctic-monkeys|A certain romance|Arctic Monkeys|arctic-monkeys.jpg a-certain-romance-acoustic-klawerbord-arctic-monkeys|A certain romance (acoustic)|Arctic Monkeys|arctic-monkeys.jpg a-certain-romance-solo-klawerbord-arctic-monkeys|A certain romance solo|Arctic Monkeys|arctic-monkeys.jpg all-my-own-stunts-klawerbord-arctic-monkeys|All my own stunts|Arctic Monkeys|arctic-monkeys.jpg american-sports-klawerbord-arctic-monkeys|American Sports|Arctic Monkeys|arctic-monkeys.jpg arabella-klawerbord-arctic-monkeys|Arabella|Arctic Monkeys|arctic-monkeys.jpg baby-im-yours-klawerbord-arctic-monkeys|Baby i'm yours|Arctic Monkeys|arctic-monkeys.jpg bad-thing-solo-klawerbord-arctic-monkeys|Bad thing solo|Arctic Monkeys|arctic-monkeys.jpg bakery-live-acoustic-klawerbord-arctic-monkeys|Bakery live acoustic|Arctic Monkeys|arctic-monkeys.jpg balaclava-klawerbord-arctic-monkeys|Balaclava|Arctic Monkeys|arctic-monkeys.jpg batphone-klawerbord-arctic-monkeys|Batphone|Arctic Monkeys|arctic-monkeys.jpg bet-that-you-look-good-on-the-dancefloor-klawerbord-arctic-monkeys|Bet that you look good on the dancefloor|Arctic Monkeys|arctic-monkeys.jpg bigger-boys-and-stolen-sweethearts-klawerbord-arctic-monkeys|Bigger boys and stolen sweethearts|Arctic Monkeys|arctic-monkeys.jpg 138
klawerbord-imagine-dragons|Imagine Dragons|imagine-dragons.jpg klawerbord-coldplay|Coldplay|coldplay.jpg klawerbord-lana-del-rey|Lana Del Rey|lana-del-rey.jpg klawerbord-the-neighbourhood|The Neighbourhood|the-neighbourhood.jpg klawerbord-the-last-shadow-puppets|The Last Shadow Puppets|the-last-shadow-puppets.jpg klawerbord-ed-sheeran|Ed Sheeran|ed-sheeran.jpg?12 klawerbord-twenty-one-pilots|Twenty One Pilots|twenty-one-pilots.jpg klawerbord-melanie-martinez|Melanie Martinez|melanie-martinez.jpg klawerbord-the-beatles|The Beatles|the-beatles.jpg klawerbord-alex-turner|Alex Turner|alex-turner.jpg klawerbord-cage-the-elephant|Cage The Elephant|cage-the-elephant.jpg klawerbord-oasis|Oasis|oasis.jpg klawerbord-panic-at-the-disco|Panic! At The Disco|panic-at-the-disco.jpg klawerbord-the-1975|The 1975|the-1975.jpg klawerbord-bruno-mars|Bruno Mars|bruno-mars.jpg 50